  0
SECTION
  2
HEADER
  9
$ANGBASE
  50
0.0
  9
$ANGDIR
  70
1
  9
$MEASUREMENT
  70
0
  0
ENDSEC
  0
SECTION
  2
TABLES
  0
TABLE
  2
LTYPE
  70
4
  0
LTYPE
  5
40F
  2
CONTINUOUS
  70
0
  3
Solid line
  72
65
  73
0
  40
0.0
  0
LTYPE
  5
410
  2
DASHDOT
 70
0
  3
Dash Dot ____ _ ____ _
 72
65
 73
4
 40
2.0
 49
1.25
 49
-0.25
 49
0.25
 49
-0.25
  0
LTYPE
  5
411
  2
DASHED
 70
0
  3
Dashed __ __ __ __ __
 72
65
 73
2
 40
0.75
 49
0.5
 49
-0.25
  0
LTYPE
  5
43B
  2
DOTTED
 70
0
  3
Dotted .  .  .  .
 72
65
 73
2
 40
0.2
 49
0.0
 49
-0.2
  0
ENDTAB
  0
TABLE
  2
STYLE
  70
4
  0
STYLE
  2
KICAD
  70
0
  40
0
  41
1
  42
1
  50
0
  71
0
  3
isocp.shx
  0
STYLE
  2
KICADB
  70
0
  40
0
  41
1
  42
1
  50
0
  71
0
  3
isocp.shx
  0
STYLE
  2
KICADI
  70
0
  40
0
  41
1
  42
1
  50
15
  71
0
  3
isocp.shx
  0
STYLE
  2
KICADBI
  70
0
  40
0
  41
1
  42
1
  50
15
  71
0
  3
isocp.shx
  0
ENDTAB
  0
TABLE
  2
LAYER
  70
1
  0
LAYER
  2
BLACK
  70
0
  62
7
  6
CONTINUOUS
  0
ENDTAB
  0
ENDSEC
  0
SECTION
  2
ENTITIES
0
LINE
8
BLACK
6
CONTINUOUS
10
2.06404
20
2.76015
11
2.07676
21
2.75814
0
LINE
8
BLACK
6
CONTINUOUS
10
2.07676
20
2.75814
11
2.0892
21
2.75481
0
LINE
8
BLACK
6
CONTINUOUS
10
2.0892
20
2.75481
11
2.10122
21
2.75019
0
LINE
8
BLACK
6
CONTINUOUS
10
2.10122
20
2.75019
11
2.1127
21
2.74434
0
LINE
8
BLACK
6
CONTINUOUS
10
2.1127
20
2.74434
11
2.1235
21
2.73733
0
LINE
8
BLACK
6
CONTINUOUS
10
2.1235
20
2.73733
11
2.13351
21
2.72923
0
LINE
8
BLACK
6
CONTINUOUS
10
2.13351
20
2.72923
11
2.14261
21
2.72012
0
LINE
8
BLACK
6
CONTINUOUS
10
2.14261
20
2.72012
11
2.15072
21
2.71011
0
LINE
8
BLACK
6
CONTINUOUS
10
2.15072
20
2.71011
11
2.15773
21
2.69931
0
LINE
8
BLACK
6
CONTINUOUS
10
2.15773
20
2.69931
11
2.16358
21
2.68784
0
LINE
8
BLACK
6
CONTINUOUS
10
2.16358
20
2.68784
11
2.16819
21
2.67581
0
LINE
8
BLACK
6
CONTINUOUS
10
2.16819
20
2.67581
11
2.17152
21
2.66337
0
LINE
8
BLACK
6
CONTINUOUS
10
2.17152
20
2.66337
11
2.17354
21
2.65066
0
LINE
8
BLACK
6
CONTINUOUS
10
2.17354
20
2.65066
11
2.17421
21
2.6378
0
LINE
8
BLACK
6
CONTINUOUS
10
2.17421
20
2.6378
11
2.17421
21
0.11811
0
LINE
8
BLACK
6
CONTINUOUS
10
2.17421
20
0.11811
11
2.17421
21
0.11811
0
LINE
8
BLACK
6
CONTINUOUS
10
2.17421
20
0.11811
11
2.17354
21
0.10525
0
LINE
8
BLACK
6
CONTINUOUS
10
2.17354
20
0.10525
11
2.17152
21
0.0925306
0
LINE
8
BLACK
6
CONTINUOUS
10
2.17152
20
0.0925306
11
2.16819
21
0.0800914
0
LINE
8
BLACK
6
CONTINUOUS
10
2.16819
20
0.0800914
11
2.16358
21
0.0680688
0
LINE
8
BLACK
6
CONTINUOUS
10
2.16358
20
0.0680688
11
2.15773
21
0.0565945
0
LINE
8
BLACK
6
CONTINUOUS
10
2.15773
20
0.0565945
11
2.15072
21
0.0457942
0
LINE
8
BLACK
6
CONTINUOUS
10
2.15072
20
0.0457942
11
2.14261
21
0.0357861
0
LINE
8
BLACK
6
CONTINUOUS
10
2.14261
20
0.0357861
11
2.13351
21
0.02668
0
LINE
8
BLACK
6
CONTINUOUS
10
2.13351
20
0.02668
11
2.1235
21
0.0185757
0
LINE
8
BLACK
6
CONTINUOUS
10
2.1235
20
0.0185757
11
2.1127
21
0.0115619
0
LINE
8
BLACK
6
CONTINUOUS
10
2.1127
20
0.0115619
11
2.10122
21
0.00571539
0
LINE
8
BLACK
6
CONTINUOUS
10
2.10122
20
0.00571539
11
2.0892
21
0.00110035
0
LINE
8
BLACK
6
CONTINUOUS
10
2.0892
20
0.00110035
11
2.07676
21
-0.00223268
0
LINE
8
BLACK
6
CONTINUOUS
10
2.07676
20
-0.00223268
11
2.06404
21
-0.00424724
0
LINE
8
BLACK
6
CONTINUOUS
10
2.06404
20
-0.00424724
11
2.05118
21
-0.00492122
0
LINE
8
BLACK
6
CONTINUOUS
10
2.05118
20
-0.00492122
11
2.05118
21
-0.00492126
0
LINE
8
BLACK
6
CONTINUOUS
10
2.05118
20
-0.00492126
11
0.122047
21
-0.00492126
0
LINE
8
BLACK
6
CONTINUOUS
10
0.122047
20
-0.00492126
11
0.109187
21
-0.00424728
0
LINE
8
BLACK
6
CONTINUOUS
10
0.109187
20
-0.00424728
11
0.0964676
21
-0.00223272
0
LINE
8
BLACK
6
CONTINUOUS
10
0.0964676
20
-0.00223272
11
0.0840284
21
0.00110031
0
LINE
8
BLACK
6
CONTINUOUS
10
0.0840284
20
0.00110031
11
0.0720058
21
0.00571535
0
LINE
8
BLACK
6
CONTINUOUS
10
0.0720058
20
0.00571535
11
0.0605315
21
0.0115619
0
LINE
8
BLACK
6
CONTINUOUS
10
0.0605315
20
0.0115619
11
0.0497311
21
0.0185757
0
LINE
8
BLACK
6
CONTINUOUS
10
0.0497311
20
0.0185757
11
0.0397231
21
0.02668
0
LINE
8
BLACK
6
CONTINUOUS
10
0.0397231
20
0.02668
11
0.030617
21
0.0357861
0
LINE
8
BLACK
6
CONTINUOUS
10
0.030617
20
0.0357861
11
0.0225127
21
0.0457941
0
LINE
8
BLACK
6
CONTINUOUS
10
0.0225127
20
0.0457941
11
0.0154989
21
0.0565945
0
LINE
8
BLACK
6
CONTINUOUS
10
0.0154989
20
0.0565945
11
0.00965236
21
0.0680688
0
LINE
8
BLACK
6
CONTINUOUS
10
0.00965236
20
0.0680688
11
0.00503732
21
0.0800914
0
LINE
8
BLACK
6
CONTINUOUS
10
0.00503732
20
0.0800914
11
0.00170429
21
0.0925306
0
LINE
8
BLACK
6
CONTINUOUS
10
0.00170429
20
0.0925306
11
-0.000310276
21
0.10525
0
LINE
8
BLACK
6
CONTINUOUS
10
-0.000310276
20
0.10525
11
-0.000984252
21
0.11811
0
LINE
8
BLACK
6
CONTINUOUS
10
-0.000984252
20
0.11811
11
-0.000984252
21
2.6378
0
LINE
8
BLACK
6
CONTINUOUS
10
-0.000984252
20
2.6378
11
-0.000984173
21
2.6378
0
LINE
8
BLACK
6
CONTINUOUS
10
-0.000984173
20
2.6378
11
-0.000310236
21
2.65066
0
LINE
8
BLACK
6
CONTINUOUS
10
-0.000310236
20
2.65066
11
0.00170433
21
2.66337
0
LINE
8
BLACK
6
CONTINUOUS
10
0.00170433
20
2.66337
11
0.00503736
21
2.67581
0
LINE
8
BLACK
6
CONTINUOUS
10
0.00503736
20
2.67581
11
0.0096524
21
2.68784
0
LINE
8
BLACK
6
CONTINUOUS
10
0.0096524
20
2.68784
11
0.0154989
21
2.69931
0
LINE
8
BLACK
6
CONTINUOUS
10
0.0154989
20
2.69931
11
0.0225127
21
2.71011
0
LINE
8
BLACK
6
CONTINUOUS
10
0.0225127
20
2.71011
11
0.030617
21
2.72012
0
LINE
8
BLACK
6
CONTINUOUS
10
0.030617
20
2.72012
11
0.0397231
21
2.72923
0
LINE
8
BLACK
6
CONTINUOUS
10
0.0397231
20
2.72923
11
0.0497312
21
2.73733
0
LINE
8
BLACK
6
CONTINUOUS
10
0.0497312
20
2.73733
11
0.0605315
21
2.74434
0
LINE
8
BLACK
6
CONTINUOUS
10
0.0605315
20
2.74434
11
0.0720058
21
2.75019
0
LINE
8
BLACK
6
CONTINUOUS
10
0.0720058
20
2.75019
11
0.0840284
21
2.75481
0
LINE
8
BLACK
6
CONTINUOUS
10
0.0840284
20
2.75481
11
0.0964676
21
2.75814
0
LINE
8
BLACK
6
CONTINUOUS
10
0.0964676
20
2.75814
11
0.109187
21
2.76015
0
LINE
8
BLACK
6
CONTINUOUS
10
0.109187
20
2.76015
11
0.122047
21
2.76083
0
LINE
8
BLACK
6
CONTINUOUS
10
0.122047
20
2.76083
11
0.122047
21
2.76083
0
LINE
8
BLACK
6
CONTINUOUS
10
0.122047
20
2.76083
11
2.05118
21
2.76083
0
LINE
8
BLACK
6
CONTINUOUS
10
2.05118
20
2.76083
11
2.06404
21
2.76015
0
LINE
8
BLACK
6
CONTINUOUS
10
0.122047
20
2.75098
11
0.122047
21
2.75098
0
LINE
8
BLACK
6
CONTINUOUS
10
0.122047
20
2.75098
11
0.121161
21
2.75111
0
LINE
8
BLACK
6
CONTINUOUS
10
0.121161
20
2.75111
11
0.109354
21
2.75045
0
LINE
8
BLACK
6
CONTINUOUS
10
0.109354
20
2.75045
11
0.0968207
21
2.74832
0
LINE
8
BLACK
6
CONTINUOUS
10
0.0968207
20
2.74832
11
0.0846044
21
2.7448
0
LINE
8
BLACK
6
CONTINUOUS
10
0.0846044
20
2.7448
11
0.072859
21
2.73994
0
LINE
8
BLACK
6
CONTINUOUS
10
0.072859
20
2.73994
11
0.0617322
21
2.73379
0
LINE
8
BLACK
6
CONTINUOUS
10
0.0617322
20
2.73379
11
0.0513639
21
2.72643
0
LINE
8
BLACK
6
CONTINUOUS
10
0.0513639
20
2.72643
11
0.0418845
21
2.71796
0
LINE
8
BLACK
6
CONTINUOUS
10
0.0418845
20
2.71796
11
0.0334131
21
2.70848
0
LINE
8
BLACK
6
CONTINUOUS
10
0.0334131
20
2.70848
11
0.0260564
21
2.69811
0
LINE
8
BLACK
6
CONTINUOUS
10
0.0260564
20
2.69811
11
0.0199069
21
2.68698
0
LINE
8
BLACK
6
CONTINUOUS
10
0.0199069
20
2.68698
11
0.0150418
21
2.67524
0
LINE
8
BLACK
6
CONTINUOUS
10
0.0150418
20
2.67524
11
0.0115223
21
2.66302
0
LINE
8
BLACK
6
CONTINUOUS
10
0.0115223
20
2.66302
11
0.0093928
21
2.65049
0
LINE
8
BLACK
6
CONTINUOUS
10
0.0093928
20
2.65049
11
0.00871087
21
2.63835
0
LINE
8
BLACK
6
CONTINUOUS
10
0.00871087
20
2.63835
11
0.00885831
21
2.6378
0
LINE
8
BLACK
6
CONTINUOUS
10
0.00885831
20
2.6378
11
0.00885827
21
2.6378
0
LINE
8
BLACK
6
CONTINUOUS
10
0.00885827
20
2.6378
11
0.00885827
21
0.11811
0
LINE
8
BLACK
6
CONTINUOUS
10
0.00885827
20
0.11811
11
0.00872972
21
0.117224
0
LINE
8
BLACK
6
CONTINUOUS
10
0.00872972
20
0.117224
11
0.00939276
21
0.105417
0
LINE
8
BLACK
6
CONTINUOUS
10
0.00939276
20
0.105417
11
0.0115223
21
0.0928836
0
LINE
8
BLACK
6
CONTINUOUS
10
0.0115223
20
0.0928836
11
0.0150417
21
0.0806674
0
LINE
8
BLACK
6
CONTINUOUS
10
0.0150417
20
0.0806674
11
0.0199068
21
0.068922
0
LINE
8
BLACK
6
CONTINUOUS
10
0.0199068
20
0.068922
11
0.0260564
21
0.0577952
0
LINE
8
BLACK
6
CONTINUOUS
10
0.0260564
20
0.0577952
11
0.0334131
21
0.0474269
0
LINE
8
BLACK
6
CONTINUOUS
10
0.0334131
20
0.0474269
11
0.0418844
21
0.0379474
0
LINE
8
BLACK
6
CONTINUOUS
10
0.0418844
20
0.0379474
11
0.0513639
21
0.0294761
0
LINE
8
BLACK
6
CONTINUOUS
10
0.0513639
20
0.0294761
11
0.0617322
21
0.0221194
0
LINE
8
BLACK
6
CONTINUOUS
10
0.0617322
20
0.0221194
11
0.072859
21
0.0159698
0
LINE
8
BLACK
6
CONTINUOUS
10
0.072859
20
0.0159698
11
0.0846044
21
0.0111047
0
LINE
8
BLACK
6
CONTINUOUS
10
0.0846044
20
0.0111047
11
0.0968206
21
0.00758528
0
LINE
8
BLACK
6
CONTINUOUS
10
0.0968206
20
0.00758528
11
0.109354
21
0.00545575
0
LINE
8
BLACK
6
CONTINUOUS
10
0.109354
20
0.00545575
11
0.121497
21
0.00477382
0
LINE
8
BLACK
6
CONTINUOUS
10
0.121497
20
0.00477382
11
0.122047
21
0.00492126
0
LINE
8
BLACK
6
CONTINUOUS
10
0.122047
20
0.00492126
11
2.05118
21
0.00492126
0
LINE
8
BLACK
6
CONTINUOUS
10
2.05118
20
0.00492126
11
2.05118
21
0.0049213
0
LINE
8
BLACK
6
CONTINUOUS
10
2.05118
20
0.0049213
11
2.05118
21
0.00492122
0
LINE
8
BLACK
6
CONTINUOUS
10
2.05118
20
0.00492122
11
2.05207
21
0.00479272
0
LINE
8
BLACK
6
CONTINUOUS
10
2.05207
20
0.00479272
11
2.06387
21
0.00545579
0
LINE
8
BLACK
6
CONTINUOUS
10
2.06387
20
0.00545579
11
2.07641
21
0.00758531
0
LINE
8
BLACK
6
CONTINUOUS
10
2.07641
20
0.00758531
11
2.08862
21
0.0111048
0
LINE
8
BLACK
6
CONTINUOUS
10
2.08862
20
0.0111048
11
2.10037
21
0.0159698
0
LINE
8
BLACK
6
CONTINUOUS
10
2.10037
20
0.0159698
11
2.1115
21
0.0221194
0
LINE
8
BLACK
6
CONTINUOUS
10
2.1115
20
0.0221194
11
2.12186
21
0.0294761
0
LINE
8
BLACK
6
CONTINUOUS
10
2.12186
20
0.0294761
11
2.13134
21
0.0379475
0
LINE
8
BLACK
6
CONTINUOUS
10
2.13134
20
0.0379475
11
2.13982
21
0.0474269
0
LINE
8
BLACK
6
CONTINUOUS
10
2.13982
20
0.0474269
11
2.14717
21
0.0577952
0
LINE
8
BLACK
6
CONTINUOUS
10
2.14717
20
0.0577952
11
2.15332
21
0.068922
0
LINE
8
BLACK
6
CONTINUOUS
10
2.15332
20
0.068922
11
2.15819
21
0.0806674
0
LINE
8
BLACK
6
CONTINUOUS
10
2.15819
20
0.0806674
11
2.16171
21
0.0928837
0
LINE
8
BLACK
6
CONTINUOUS
10
2.16171
20
0.0928837
11
2.16384
21
0.105417
0
LINE
8
BLACK
6
CONTINUOUS
10
2.16384
20
0.105417
11
2.16452
21
0.11756
0
LINE
8
BLACK
6
CONTINUOUS
10
2.16452
20
0.11756
11
2.16437
21
0.11811
0
LINE
8
BLACK
6
CONTINUOUS
10
2.16437
20
0.11811
11
2.16437
21
0.11811
0
LINE
8
BLACK
6
CONTINUOUS
10
2.16437
20
0.11811
11
2.16437
21
2.6378
0
LINE
8
BLACK
6
CONTINUOUS
10
2.16437
20
2.6378
11
2.1645
21
2.63868
0
LINE
8
BLACK
6
CONTINUOUS
10
2.1645
20
2.63868
11
2.16384
21
2.65049
0
LINE
8
BLACK
6
CONTINUOUS
10
2.16384
20
2.65049
11
2.16171
21
2.66302
0
LINE
8
BLACK
6
CONTINUOUS
10
2.16171
20
2.66302
11
2.15819
21
2.67524
0
LINE
8
BLACK
6
CONTINUOUS
10
2.15819
20
2.67524
11
2.15332
21
2.68698
0
LINE
8
BLACK
6
CONTINUOUS
10
2.15332
20
2.68698
11
2.14717
21
2.69811
0
LINE
8
BLACK
6
CONTINUOUS
10
2.14717
20
2.69811
11
2.13982
21
2.70848
0
LINE
8
BLACK
6
CONTINUOUS
10
2.13982
20
2.70848
11
2.13134
21
2.71796
0
LINE
8
BLACK
6
CONTINUOUS
10
2.13134
20
2.71796
11
2.12186
21
2.72643
0
LINE
8
BLACK
6
CONTINUOUS
10
2.12186
20
2.72643
11
2.1115
21
2.73379
0
LINE
8
BLACK
6
CONTINUOUS
10
2.1115
20
2.73379
11
2.10037
21
2.73994
0
LINE
8
BLACK
6
CONTINUOUS
10
2.10037
20
2.73994
11
2.08862
21
2.7448
0
LINE
8
BLACK
6
CONTINUOUS
10
2.08862
20
2.7448
11
2.07641
21
2.74832
0
LINE
8
BLACK
6
CONTINUOUS
10
2.07641
20
2.74832
11
2.06387
21
2.75045
0
LINE
8
BLACK
6
CONTINUOUS
10
2.06387
20
2.75045
11
2.05173
21
2.75113
0
LINE
8
BLACK
6
CONTINUOUS
10
2.05173
20
2.75113
11
2.05118
21
2.75098
0
LINE
8
BLACK
6
CONTINUOUS
10
2.05118
20
2.75098
11
0.122047
21
2.75098
0
LINE
8
BLACK
6
CONTINUOUS
10
0.122047
20
2.75098
11
0.122047
21
2.75098
  0
ENDSEC
  0
EOF
