  0
SECTION
  2
HEADER
  9
$ANGBASE
  50
0.0
  9
$ANGDIR
  70
1
  9
$MEASUREMENT
  70
1
  0
ENDSEC
  0
SECTION
  2
TABLES
  0
TABLE
  2
LTYPE
  70
4
  0
LTYPE
  5
40F
  2
CONTINUOUS
  70
0
  3
Solid line
  72
65
  73
0
  40
0.0
  0
LTYPE
  5
410
  2
DASHDOT
 70
0
  3
Dash Dot ____ _ ____ _
 72
65
 73
4
 40
2.0
 49
1.25
 49
-0.25
 49
0.25
 49
-0.25
  0
LTYPE
  5
411
  2
DASHED
 70
0
  3
Dashed __ __ __ __ __
 72
65
 73
2
 40
0.75
 49
0.5
 49
-0.25
  0
LTYPE
  5
43B
  2
DOTTED
 70
0
  3
Dotted .  .  .  .
 72
65
 73
2
 40
0.2
 49
0.0
 49
-0.2
  0
ENDTAB
  0
TABLE
  2
STYLE
  70
4
  0
STYLE
  2
KICAD
  70
0
  40
0
  41
1
  42
1
  50
0
  71
0
  3
isocp.shx
  0
STYLE
  2
KICADB
  70
0
  40
0
  41
1
  42
1
  50
0
  71
0
  3
isocp.shx
  0
STYLE
  2
KICADI
  70
0
  40
0
  41
1
  42
1
  50
15
  71
0
  3
isocp.shx
  0
STYLE
  2
KICADBI
  70
0
  40
0
  41
1
  42
1
  50
15
  71
0
  3
isocp.shx
  0
ENDTAB
  0
TABLE
  2
LAYER
  70
1
  0
LAYER
  2
BLACK
  70
0
  62
7
  6
CONTINUOUS
  0
ENDTAB
  0
ENDSEC
  0
SECTION
  2
ENTITIES
0
LINE
8
BLACK
6
CONTINUOUS
10
147.559
20
-142.569
11
147.595
21
-142.619
0
LINE
8
BLACK
6
CONTINUOUS
10
147.595
20
-142.619
11
147.595
21
-142.681
0
LINE
8
BLACK
6
CONTINUOUS
10
147.595
20
-142.681
11
147.559
21
-142.731
0
LINE
8
BLACK
6
CONTINUOUS
10
147.559
20
-142.731
11
147.5
21
-142.75
0
LINE
8
BLACK
6
CONTINUOUS
10
147.5
20
-142.75
11
147.1
21
-142.75
0
LINE
8
BLACK
6
CONTINUOUS
10
147.1
20
-142.75
11
147.041
21
-142.731
0
LINE
8
BLACK
6
CONTINUOUS
10
147.041
20
-142.731
11
147.005
21
-142.681
0
LINE
8
BLACK
6
CONTINUOUS
10
147.005
20
-142.681
11
147.005
21
-142.619
0
LINE
8
BLACK
6
CONTINUOUS
10
147.005
20
-142.619
11
147.041
21
-142.569
0
LINE
8
BLACK
6
CONTINUOUS
10
147.041
20
-142.569
11
147.1
21
-142.55
0
LINE
8
BLACK
6
CONTINUOUS
10
147.1
20
-142.55
11
147.5
21
-142.55
0
LINE
8
BLACK
6
CONTINUOUS
10
147.5
20
-142.55
11
147.559
21
-142.569
0
LINE
8
BLACK
6
CONTINUOUS
10
139.959
20
-142.569
11
139.995
21
-142.619
0
LINE
8
BLACK
6
CONTINUOUS
10
139.995
20
-142.619
11
139.995
21
-142.681
0
LINE
8
BLACK
6
CONTINUOUS
10
139.995
20
-142.681
11
139.959
21
-142.731
0
LINE
8
BLACK
6
CONTINUOUS
10
139.959
20
-142.731
11
139.9
21
-142.75
0
LINE
8
BLACK
6
CONTINUOUS
10
139.9
20
-142.75
11
139.5
21
-142.75
0
LINE
8
BLACK
6
CONTINUOUS
10
139.5
20
-142.75
11
139.441
21
-142.731
0
LINE
8
BLACK
6
CONTINUOUS
10
139.441
20
-142.731
11
139.405
21
-142.681
0
LINE
8
BLACK
6
CONTINUOUS
10
139.405
20
-142.681
11
139.405
21
-142.619
0
LINE
8
BLACK
6
CONTINUOUS
10
139.405
20
-142.619
11
139.441
21
-142.569
0
LINE
8
BLACK
6
CONTINUOUS
10
139.441
20
-142.569
11
139.5
21
-142.55
0
LINE
8
BLACK
6
CONTINUOUS
10
139.5
20
-142.55
11
139.9
21
-142.55
0
LINE
8
BLACK
6
CONTINUOUS
10
139.9
20
-142.55
11
139.959
21
-142.569
0
LINE
8
BLACK
6
CONTINUOUS
10
138.941
20
-141.241
11
138.96
21
-141.3
0
LINE
8
BLACK
6
CONTINUOUS
10
138.96
20
-141.3
11
138.96
21
-141.9
0
LINE
8
BLACK
6
CONTINUOUS
10
138.96
20
-141.9
11
138.941
21
-141.959
0
LINE
8
BLACK
6
CONTINUOUS
10
138.941
20
-141.959
11
138.891
21
-141.995
0
LINE
8
BLACK
6
CONTINUOUS
10
138.891
20
-141.995
11
138.829
21
-141.995
0
LINE
8
BLACK
6
CONTINUOUS
10
138.829
20
-141.995
11
138.779
21
-141.959
0
LINE
8
BLACK
6
CONTINUOUS
10
138.779
20
-141.959
11
138.76
21
-141.9
0
LINE
8
BLACK
6
CONTINUOUS
10
138.76
20
-141.9
11
138.76
21
-141.3
0
LINE
8
BLACK
6
CONTINUOUS
10
138.76
20
-141.3
11
138.779
21
-141.241
0
LINE
8
BLACK
6
CONTINUOUS
10
138.779
20
-141.241
11
138.829
21
-141.205
0
LINE
8
BLACK
6
CONTINUOUS
10
138.829
20
-141.205
11
138.891
21
-141.205
0
LINE
8
BLACK
6
CONTINUOUS
10
138.891
20
-141.205
11
138.941
21
-141.241
0
LINE
8
BLACK
6
CONTINUOUS
10
148.221
20
-141.241
11
148.24
21
-141.3
0
LINE
8
BLACK
6
CONTINUOUS
10
148.24
20
-141.3
11
148.24
21
-141.7
0
LINE
8
BLACK
6
CONTINUOUS
10
148.24
20
-141.7
11
148.221
21
-141.759
0
LINE
8
BLACK
6
CONTINUOUS
10
148.221
20
-141.759
11
148.171
21
-141.795
0
LINE
8
BLACK
6
CONTINUOUS
10
148.171
20
-141.795
11
148.109
21
-141.795
0
LINE
8
BLACK
6
CONTINUOUS
10
148.109
20
-141.795
11
148.059
21
-141.759
0
LINE
8
BLACK
6
CONTINUOUS
10
148.059
20
-141.759
11
148.04
21
-141.7
0
LINE
8
BLACK
6
CONTINUOUS
10
148.04
20
-141.7
11
148.04
21
-141.3
0
LINE
8
BLACK
6
CONTINUOUS
10
148.04
20
-141.3
11
148.059
21
-141.241
0
LINE
8
BLACK
6
CONTINUOUS
10
148.059
20
-141.241
11
148.109
21
-141.205
0
LINE
8
BLACK
6
CONTINUOUS
10
148.109
20
-141.205
11
148.171
21
-141.205
0
LINE
8
BLACK
6
CONTINUOUS
10
148.171
20
-141.205
11
148.221
21
-141.241
0
LINE
8
BLACK
6
CONTINUOUS
10
147.559
20
-140.269
11
147.595
21
-140.319
0
LINE
8
BLACK
6
CONTINUOUS
10
147.595
20
-140.319
11
147.595
21
-140.381
0
LINE
8
BLACK
6
CONTINUOUS
10
147.595
20
-140.381
11
147.559
21
-140.431
0
LINE
8
BLACK
6
CONTINUOUS
10
147.559
20
-140.431
11
147.5
21
-140.45
0
LINE
8
BLACK
6
CONTINUOUS
10
147.5
20
-140.45
11
147.1
21
-140.45
0
LINE
8
BLACK
6
CONTINUOUS
10
147.1
20
-140.45
11
147.041
21
-140.431
0
LINE
8
BLACK
6
CONTINUOUS
10
147.041
20
-140.431
11
147.005
21
-140.381
0
LINE
8
BLACK
6
CONTINUOUS
10
147.005
20
-140.381
11
147.005
21
-140.319
0
LINE
8
BLACK
6
CONTINUOUS
10
147.005
20
-140.319
11
147.041
21
-140.269
0
LINE
8
BLACK
6
CONTINUOUS
10
147.041
20
-140.269
11
147.1
21
-140.25
0
LINE
8
BLACK
6
CONTINUOUS
10
147.1
20
-140.25
11
147.5
21
-140.25
0
LINE
8
BLACK
6
CONTINUOUS
10
147.5
20
-140.25
11
147.559
21
-140.269
0
LINE
8
BLACK
6
CONTINUOUS
10
139.959
20
-140.269
11
139.995
21
-140.319
0
LINE
8
BLACK
6
CONTINUOUS
10
139.995
20
-140.319
11
139.995
21
-140.381
0
LINE
8
BLACK
6
CONTINUOUS
10
139.995
20
-140.381
11
139.959
21
-140.431
0
LINE
8
BLACK
6
CONTINUOUS
10
139.959
20
-140.431
11
139.9
21
-140.45
0
LINE
8
BLACK
6
CONTINUOUS
10
139.9
20
-140.45
11
139.5
21
-140.45
0
LINE
8
BLACK
6
CONTINUOUS
10
139.5
20
-140.45
11
139.441
21
-140.431
0
LINE
8
BLACK
6
CONTINUOUS
10
139.441
20
-140.431
11
139.405
21
-140.381
0
LINE
8
BLACK
6
CONTINUOUS
10
139.405
20
-140.381
11
139.405
21
-140.319
0
LINE
8
BLACK
6
CONTINUOUS
10
139.405
20
-140.319
11
139.441
21
-140.269
0
LINE
8
BLACK
6
CONTINUOUS
10
139.441
20
-140.269
11
139.5
21
-140.25
0
LINE
8
BLACK
6
CONTINUOUS
10
139.5
20
-140.25
11
139.9
21
-140.25
0
LINE
8
BLACK
6
CONTINUOUS
10
139.9
20
-140.25
11
139.959
21
-140.269
0
LINE
8
BLACK
6
CONTINUOUS
10
143.685
20
-137.439
11
143.739
21
-137.485
0
LINE
8
BLACK
6
CONTINUOUS
10
143.739
20
-137.485
11
143.758
21
-137.552
0
LINE
8
BLACK
6
CONTINUOUS
10
143.758
20
-137.552
11
143.758
21
-138.246
0
LINE
8
BLACK
6
CONTINUOUS
10
143.758
20
-138.246
11
143.79
21
-138.342
0
LINE
8
BLACK
6
CONTINUOUS
10
143.79
20
-138.342
11
143.844
21
-138.396
0
LINE
8
BLACK
6
CONTINUOUS
10
143.844
20
-138.396
11
143.939
21
-138.427
0
LINE
8
BLACK
6
CONTINUOUS
10
143.939
20
-138.427
11
144.014
21
-138.427
0
LINE
8
BLACK
6
CONTINUOUS
10
144.014
20
-138.427
11
144.05
21
-138.433
0
LINE
8
BLACK
6
CONTINUOUS
10
144.05
20
-138.433
11
144.109
21
-138.471
0
LINE
8
BLACK
6
CONTINUOUS
10
144.109
20
-138.471
11
144.138
21
-138.535
0
LINE
8
BLACK
6
CONTINUOUS
10
144.138
20
-138.535
11
144.128
21
-138.604
0
LINE
8
BLACK
6
CONTINUOUS
10
144.128
20
-138.604
11
144.082
21
-138.658
0
LINE
8
BLACK
6
CONTINUOUS
10
144.082
20
-138.658
11
144.014
21
-138.677
0
LINE
8
BLACK
6
CONTINUOUS
10
144.014
20
-138.677
11
143.919
21
-138.677
0
LINE
8
BLACK
6
CONTINUOUS
10
143.919
20
-138.677
11
143.884
21
-138.672
0
LINE
8
BLACK
6
CONTINUOUS
10
143.884
20
-138.672
11
143.882
21
-138.671
0
LINE
8
BLACK
6
CONTINUOUS
10
143.882
20
-138.671
11
143.88
21
-138.671
0
LINE
8
BLACK
6
CONTINUOUS
10
143.88
20
-138.671
11
143.737
21
-138.623
0
LINE
8
BLACK
6
CONTINUOUS
10
143.737
20
-138.623
11
143.705
21
-138.607
0
LINE
8
BLACK
6
CONTINUOUS
10
143.705
20
-138.607
11
143.698
21
-138.599
0
LINE
8
BLACK
6
CONTINUOUS
10
143.698
20
-138.599
11
143.688
21
-138.593
0
LINE
8
BLACK
6
CONTINUOUS
10
143.688
20
-138.593
11
143.593
21
-138.498
0
LINE
8
BLACK
6
CONTINUOUS
10
143.593
20
-138.498
11
143.571
21
-138.469
0
LINE
8
BLACK
6
CONTINUOUS
10
143.571
20
-138.469
11
143.569
21
-138.458
0
LINE
8
BLACK
6
CONTINUOUS
10
143.569
20
-138.458
11
143.562
21
-138.449
0
LINE
8
BLACK
6
CONTINUOUS
10
143.562
20
-138.449
11
143.515
21
-138.306
0
LINE
8
BLACK
6
CONTINUOUS
10
143.515
20
-138.306
11
143.508
21
-138.271
0
LINE
8
BLACK
6
CONTINUOUS
10
143.508
20
-138.271
11
143.509
21
-138.269
0
LINE
8
BLACK
6
CONTINUOUS
10
143.509
20
-138.269
11
143.508
21
-138.267
0
LINE
8
BLACK
6
CONTINUOUS
10
143.508
20
-138.267
11
143.508
21
-137.552
0
LINE
8
BLACK
6
CONTINUOUS
10
143.508
20
-137.552
11
143.513
21
-137.517
0
LINE
8
BLACK
6
CONTINUOUS
10
143.513
20
-137.517
11
143.552
21
-137.458
0
LINE
8
BLACK
6
CONTINUOUS
10
143.552
20
-137.458
11
143.616
21
-137.429
0
LINE
8
BLACK
6
CONTINUOUS
10
143.616
20
-137.429
11
143.685
21
-137.439
0
LINE
8
BLACK
6
CONTINUOUS
10
142.935
20
-137.434
11
142.969
21
-137.438
0
LINE
8
BLACK
6
CONTINUOUS
10
142.969
20
-137.438
11
142.97
21
-137.439
0
LINE
8
BLACK
6
CONTINUOUS
10
142.97
20
-137.439
11
142.971
21
-137.439
0
LINE
8
BLACK
6
CONTINUOUS
10
142.971
20
-137.439
11
142.997
21
-137.461
0
LINE
8
BLACK
6
CONTINUOUS
10
142.997
20
-137.461
11
143.023
21
-137.483
0
LINE
8
BLACK
6
CONTINUOUS
10
143.023
20
-137.483
11
143.111
21
-137.616
0
LINE
8
BLACK
6
CONTINUOUS
10
143.111
20
-137.616
11
143.184
21
-137.688
0
LINE
8
BLACK
6
CONTINUOUS
10
143.184
20
-137.688
11
143.261
21
-137.726
0
LINE
8
BLACK
6
CONTINUOUS
10
143.261
20
-137.726
11
143.29
21
-137.747
0
LINE
8
BLACK
6
CONTINUOUS
10
143.29
20
-137.747
11
143.326
21
-137.807
0
LINE
8
BLACK
6
CONTINUOUS
10
143.326
20
-137.807
11
143.323
21
-137.878
0
LINE
8
BLACK
6
CONTINUOUS
10
143.323
20
-137.878
11
143.283
21
-137.935
0
LINE
8
BLACK
6
CONTINUOUS
10
143.283
20
-137.935
11
143.218
21
-137.962
0
LINE
8
BLACK
6
CONTINUOUS
10
143.218
20
-137.962
11
143.149
21
-137.95
0
LINE
8
BLACK
6
CONTINUOUS
10
143.149
20
-137.95
11
143.054
21
-137.902
0
LINE
8
BLACK
6
CONTINUOUS
10
143.054
20
-137.902
11
143.044
21
-137.896
0
LINE
8
BLACK
6
CONTINUOUS
10
143.044
20
-137.896
11
143.044
21
-138.427
0
LINE
8
BLACK
6
CONTINUOUS
10
143.044
20
-138.427
11
143.205
21
-138.427
0
LINE
8
BLACK
6
CONTINUOUS
10
143.205
20
-138.427
11
143.24
21
-138.433
0
LINE
8
BLACK
6
CONTINUOUS
10
143.24
20
-138.433
11
143.299
21
-138.471
0
LINE
8
BLACK
6
CONTINUOUS
10
143.299
20
-138.471
11
143.329
21
-138.535
0
LINE
8
BLACK
6
CONTINUOUS
10
143.329
20
-138.535
11
143.318
21
-138.604
0
LINE
8
BLACK
6
CONTINUOUS
10
143.318
20
-138.604
11
143.272
21
-138.658
0
LINE
8
BLACK
6
CONTINUOUS
10
143.272
20
-138.658
11
143.205
21
-138.677
0
LINE
8
BLACK
6
CONTINUOUS
10
143.205
20
-138.677
11
142.633
21
-138.677
0
LINE
8
BLACK
6
CONTINUOUS
10
142.633
20
-138.677
11
142.598
21
-138.672
0
LINE
8
BLACK
6
CONTINUOUS
10
142.598
20
-138.672
11
142.539
21
-138.634
0
LINE
8
BLACK
6
CONTINUOUS
10
142.539
20
-138.634
11
142.51
21
-138.57
0
LINE
8
BLACK
6
CONTINUOUS
10
142.51
20
-138.57
11
142.52
21
-138.5
0
LINE
8
BLACK
6
CONTINUOUS
10
142.52
20
-138.5
11
142.566
21
-138.447
0
LINE
8
BLACK
6
CONTINUOUS
10
142.566
20
-138.447
11
142.633
21
-138.427
0
LINE
8
BLACK
6
CONTINUOUS
10
142.633
20
-138.427
11
142.794
21
-138.427
0
LINE
8
BLACK
6
CONTINUOUS
10
142.794
20
-138.427
11
142.794
21
-137.552
0
LINE
8
BLACK
6
CONTINUOUS
10
142.794
20
-137.552
11
142.799
21
-137.521
0
LINE
8
BLACK
6
CONTINUOUS
10
142.799
20
-137.521
11
142.799
21
-137.519
0
LINE
8
BLACK
6
CONTINUOUS
10
142.799
20
-137.519
11
142.799
21
-137.518
0
LINE
8
BLACK
6
CONTINUOUS
10
142.799
20
-137.518
11
142.799
21
-137.517
0
LINE
8
BLACK
6
CONTINUOUS
10
142.799
20
-137.517
11
142.818
21
-137.488
0
LINE
8
BLACK
6
CONTINUOUS
10
142.818
20
-137.488
11
142.836
21
-137.459
0
LINE
8
BLACK
6
CONTINUOUS
10
142.836
20
-137.459
11
142.837
21
-137.459
0
LINE
8
BLACK
6
CONTINUOUS
10
142.837
20
-137.459
11
142.837
21
-137.458
0
LINE
8
BLACK
6
CONTINUOUS
10
142.837
20
-137.458
11
142.868
21
-137.444
0
LINE
8
BLACK
6
CONTINUOUS
10
142.868
20
-137.444
11
142.899
21
-137.429
0
LINE
8
BLACK
6
CONTINUOUS
10
142.899
20
-137.429
11
142.9
21
-137.429
0
LINE
8
BLACK
6
CONTINUOUS
10
142.9
20
-137.429
11
142.901
21
-137.429
0
LINE
8
BLACK
6
CONTINUOUS
10
142.901
20
-137.429
11
142.935
21
-137.434
  0
ENDSEC
  0
EOF
